Текст песни: m chedid - a celle qui dure | текст песни и табы (аккорды) для бас гитары и Mp3

Song:A celle qui dure.
Artist: -M-
tabbed by Pim (funkymatt@caramail.com)

Intro:(slap)
|-4-6--4-6---2-4--2-4-x-4-6--4-6--2-4--2-4---5----|
|-------------------------------------------------|
|-------------------------------------------------|
|-------------------------------------------------|

couplet:
|-------------------------------4-6----4-6--------------|
|---2-4----2-4----2-4----2-4----------------------------|
|-0------0--------------------4------4--------2-4----2-4|
|---------------4------4--------------------0------0----| X times

refrain:
|------------------------------------------------|
|------------------------------------------------|
|-4----------------(2)--2--4----------------(2)--|
|----0--2---4--5---------------0--2---4--5-------|2 times

|----------------------|
|----------------------|
|---4--6-7-6--4--2-----|
|----------------------|

Идет поиск видеоклипа в базе...
(при отсутствии ролика в базе, ничего не произойдет)


Song:A celle qui dure.
Artist: -M-
tabbed by Pim (funkymatt@caramail.com)

Intro:(slap)
|-4-6--4-6---2-4--2-4-x-4-6--4-6--2-4--2-4---5----|
|-------------------------------------------------|
|-------------------------------------------------|
|-------------------------------------------------|

couplet:
|-------------------------------4-6----4-6--------------|
|---2-4----2-4----2-4----2-4----------------------------|
|-0------0--------------------4------4--------2-4----2-4|
|---------------4------4--------------------0------0----| X times

refrain:
|------------------------------------------------|
|------------------------------------------------|
|-4----------------(2)--2--4----------------(2)--|
|----0--2---4--5---------------0--2---4--5-------|2 times

|----------------------|
|----------------------|
|---4--6-7-6--4--2-----|
|----------------------|

Адрес электронной почты example@domain.ru
Код заказа 999-999
Нажмите после заполнения

Пожалуйста, вводите корректный адрес электронной почты, так как на этот адрес будет отправлена дополнительная ссылка на загрузку выбранной Вами песни. Если был указан неправильный адрес электронной почты, вы можете его исправить. Для исправления адреса электронной почты отправьте электронно письмо в службу поддержки (support@musicgu.ru). В письме укажите полученный Вами код и корректный адрес электронной почты.

Отправляя сообщение на один из предоставленных номеров Вы подтверждаете свое согласие с Правилами использования сайта и Пользовательским соглашением.