Текст песни: m chedid - faut oublier | текст песни и табы (аккорды) для бас гитары и Mp3

Song: Faut Oublier
Artist: M Chedid
Album: Aime
Tabbed by: evedder (evedder@ifrance.com)

Classical tuning.

Comments: a quite difficult one, because the bass slides all long, particuarly during the chorus.
To play on a fretless or acoustical bass.



~: tremolo
: slide down
/: slide up

Intro

G |--------1/-4--|
D |--2--1--------|
A |--------------| x2
E |--------------|

Verse 1

G |--------------~1-----~4--|--------------~1---~4---~6-|---~1---~4----~6--|
D |--~2---~1----1------/4---|---~2----~1---1---/4---/6--|--1----/4----/6---|
A |------2------------------|--2-----2------------------|------------------|
E |-------------------------|---------------------------|------------------|

|
G |------------~1----~4--|--------------~1--~4---~6----~15--|--~1---~4-----~6-----~15--|
D |-~2---~1---1-----/4---|--~2----~1---1---/4---/6---/14----|-1----/4-----/6----/14----|
A |-----2----------------|-2-----2--------------------------|--------------------------|
E |----------------------|----------------------------------|--------------------------|


Chorus

G |------------/8-----------/9-|----------/8-----------------|
D |----------/6-----------/6---|--------/8-----------4/6-~4--|
A |-----/4-----------/4--------|---/6-----------/4-----------|
E |-114-----------/4----------|-/4-----------/4-------------|
>

G |------------/8-----------/9--|---------/8------------|
D |----------/6-----------/6----|-------/8--------------|
A |------/4-----------/4--------|---/6-----------/4--/6-|
E |-----4-----------/4----------|-/4--------------------|


Verse2

G |--------------~1------~4---|--------------~1---~4---~6-|
D |--~2---~1-----1------/4----|---~2-----~1--1---/4---/6--|
A |-------2-------------------|---2------2----------------|
E |---------------------------|---------------------------|

G |--------------~1--~4---~6---~15---|--~1----~4----~6---/~15---|
D |--~2----~1---1---/4---/6---/14----|-1-----/4----/6------------|
A |-2-----2--------------------------|--------------------------|
E |----------------------------------|--------------------------|

Then Chorus till the end.

Идет поиск видеоклипа в базе...
(при отсутствии ролика в базе, ничего не произойдет)


Song: Faut Oublier
Artist: M Chedid
Album: Aime
Tabbed by: evedder (evedder@ifrance.com)

Classical tuning.

Comments: a quite difficult one, because the bass slides all long, particuarly during the chorus.
To play on a fretless or acoustical bass.



~: tremolo
: slide down
/: slide up

Intro

G |--------1/-4--|
D |--2--1--------|
A |--------------| x2
E |--------------|

Verse 1

G |--------------~1-----~4--|--------------~1---~4---~6-|---~1---~4----~6--|
D |--~2---~1----1------/4---|---~2----~1---1---/4---/6--|--1----/4----/6---|
A |------2------------------|--2-----2------------------|------------------|
E |-------------------------|---------------------------|------------------|

|
G |------------~1----~4--|--------------~1--~4---~6----~15--|--~1---~4-----~6-----~15--|
D |-~2---~1---1-----/4---|--~2----~1---1---/4---/6---/14----|-1----/4-----/6----/14----|
A |-----2----------------|-2-----2--------------------------|--------------------------|
E |----------------------|----------------------------------|--------------------------|


Chorus

G |------------/8-----------/9-|----------/8-----------------|
D |----------/6-----------/6---|--------/8-----------4/6-~4--|
A |-----/4-----------/4--------|---/6-----------/4-----------|
E |-114-----------/4----------|-/4-----------/4-------------|
>

G |------------/8-----------/9--|---------/8------------|
D |----------/6-----------/6----|-------/8--------------|
A |------/4-----------/4--------|---/6-----------/4--/6-|
E |-----4-----------/4----------|-/4--------------------|


Verse2

G |--------------~1------~4---|--------------~1---~4---~6-|
D |--~2---~1-----1------/4----|---~2-----~1--1---/4---/6--|
A |-------2-------------------|---2------2----------------|
E |---------------------------|---------------------------|

G |--------------~1--~4---~6---~15---|--~1----~4----~6---/~15---|
D |--~2----~1---1---/4---/6---/14----|-1-----/4----/6------------|
A |-2-----2--------------------------|--------------------------|
E |----------------------------------|--------------------------|

Then Chorus till the end.

Адрес электронной почты example@domain.ru
Код заказа 999-999
Нажмите после заполнения

Пожалуйста, вводите корректный адрес электронной почты, так как на этот адрес будет отправлена дополнительная ссылка на загрузку выбранной Вами песни. Если был указан неправильный адрес электронной почты, вы можете его исправить. Для исправления адреса электронной почты отправьте электронно письмо в службу поддержки (support@musicgu.ru). В письме укажите полученный Вами код и корректный адрес электронной почты.

Отправляя сообщение на один из предоставленных номеров Вы подтверждаете свое согласие с Правилами использования сайта и Пользовательским соглашением.